Текст песни: Kyuss - shine | текст песни и табы (аккорды) для гитары и Mp3

Shine

by Kyuss
From the CD `Muchas Gracias ...the best of`

transcribed by Christian Reindel(creindel@gmx.de)
any questions or corrections- e-mail me

Tuning: (Low) C, F, Bb, Eb, G, C (High)

just the basics, it`s very simple but sounds good

Main Riff (clean guitar)

C |--------------------||------------------|
G |--------------------||------------------|
Eb|--------------------||------------------|
Bb|--------2--(2)------||-2---2-2----------|
F |-1-1--2-------------||---------2--1-(1)-|
C |--------------------||------------------|

Riff 2 (with distorsion)

C |-------------------------------------------------------|
G |-------------------------------------------------------|
Eb|-------------------------------------------------------|
Bb|-------------------------------------------------------|
F |-2--2-2--2--2-2--2--2-2--8--8-8--8--8-8--8--8-8--------|
C |-0--0-0--0--0-0--0--0-0--6--6-6--6--6-6--6--6-6--------|


That`s it

Идет поиск видеоклипа в базе...
(при отсутствии ролика в базе, ничего не произойдет)


Shine

by Kyuss
From the CD `Muchas Gracias ...the best of`

transcribed by Christian Reindel(creindel@gmx.de)
any questions or corrections- e-mail me

Tuning: (Low) C, F, Bb, Eb, G, C (High)

just the basics, it`s very simple but sounds good

Main Riff (clean guitar)

C |--------------------||------------------|
G |--------------------||------------------|
Eb|--------------------||------------------|
Bb|--------2--(2)------||-2---2-2----------|
F |-1-1--2-------------||---------2--1-(1)-|
C |--------------------||------------------|

Riff 2 (with distorsion)

C |-------------------------------------------------------|
G |-------------------------------------------------------|
Eb|-------------------------------------------------------|
Bb|-------------------------------------------------------|
F |-2--2-2--2--2-2--2--2-2--8--8-8--8--8-8--8--8-8--------|
C |-0--0-0--0--0-0--0--0-0--6--6-6--6--6-6--6--6-6--------|


That`s it

Адрес электронной почты example@domain.ru
Код заказа 999-999
Нажмите после заполнения

Пожалуйста, вводите корректный адрес электронной почты, так как на этот адрес будет отправлена дополнительная ссылка на загрузку выбранной Вами песни. Если был указан неправильный адрес электронной почты, вы можете его исправить. Для исправления адреса электронной почты отправьте электронно письмо в службу поддержки (support@musicgu.ru). В письме укажите полученный Вами код и корректный адрес электронной почты.

Отправляя сообщение на один из предоставленных номеров Вы подтверждаете свое согласие с Правилами использования сайта и Пользовательским соглашением.